10 Best Golf Game For Switch

Updated on: August 2022

Best Golf Game For Switch in 2022


Sports Party - Nintendo Switch Standard Edition

Sports Party - Nintendo Switch Standard Edition
BESTSELLER NO. 1 in 2022

Instant Sports - Nintendo Switch

Instant Sports - Nintendo Switch
BESTSELLER NO. 2 in 2022
  • 6 sports: baseball, run's jump, goalkeeper, tennis, bowling & rafting.
  • 20 characters to customize (change your name, Outfit, accessories & Hair!)
  • Varied game modes - solo or multiplayer for up to 8 players.
  • More than 15 environments and tons of unlockable items.

Go Vacation - Nintendo Switch

Go Vacation - Nintendo Switch
BESTSELLER NO. 3 in 2022
  • Welcome to kawawii island, a paradise resort where friends and family can Enjoy 50+ co-op and competitive activities
  • There are all sorts of exciting ways to explore the island, from horseback to buggies, snow mobile to inline skates
  • If you're playing multiplayer, each player can use just One Joy-Con Controller
  • Experience hours of fun and something new every day. Customize your character, costumes, vehicles and even pets!
  • Daily presents and challenges mean that you will want to keep coming back to the island of kawawii to explore more terrain and play through activities all over again;Entertainment Software Rating Board (ESRB) Content Description: Mild violence

NBA 2K20 Nintendo Switch

NBA 2K20   Nintendo Switch
BESTSELLER NO. 4 in 2022
  • Best in class graphics & gameplay, ground breaking game modes, and unparalleled player control and customization
  • NBA 2K20 is a platform for gamers and ballers to come together and create what's next in basketball culture

Mario Golf: World Tour - Nintendo 3DS

Mario Golf: World Tour - Nintendo 3DS
BESTSELLER NO. 5 in 2022
  • Array

Limited Run Games Golf Story (Switch Limited Run #15)

Limited Run Games Golf Story (Switch Limited Run #15)
BESTSELLER NO. 6 in 2022

Mario Tennis Aces - Nintendo Switch

Mario Tennis Aces - Nintendo Switch
BESTSELLER NO. 7 in 2022
  • A new Mario tennis game is bringing a new level of skill and competition to the Nintendo Switch system
  • Mario steps onto the court in classy tennis garb for intense rallies against a variety of characters in full blown tennis battles
  • New wrinkles in tennis game play will challenge your ability to read an opponent's position and stroke to determine which Shot will give you the advantage
  • And this time the game adds the first story mode since the Mario tennis game on the game boy advance system
  • Offering a new flavor of tennis game play, with a variety of missions, boss battles and more
  • Nintendo Switch Online membership (sold separately) and Nintendo Account required for online play

Mario & Sonic at the Olympic Games Tokyo 2020 - Nintendo Switch

Mario & Sonic at the Olympic Games Tokyo 2020 - Nintendo Switch
BESTSELLER NO. 8 in 2022
  • It’s party time, and everyone’s invited! Team up with Mario, Sonic, and friends on Nintendo Switch in action-packed sporting events! Bring your best moves to the track, the gym, the ring, or the water in dozens of different party games everyone will enjoy.
  • Skateboard, surf, and race your way to the top! With more than 30 events to master in this fun-filled Olympic Games contest, there are plenty of ways to prove your skills to your friends in multiplayer mode.
  • The team’s all here! Play as Mario, Sonic, or choose from a star-studded cast of colorful characters from your favorite games.
  • Dive into unique Dream Events that layer fantastical chaos with reality. Zip through a downhill obstacle course on your hoverboard, throwdown for territorial control with lightning-fast karate action, or smash the most targets inside a traditional Japanese manor!
  • And you won’t want to miss an epic story mode that sends you to 1964 to compete in classic, retro 2D sports events. Play any way you want on your Nintendo Switch. We’re talking motion and button controls, single and dual Joy-Con, single-player and multiplayer, local split-screen and online!

D3 Publisher THE Taikan ! Sports Pack: Tennis, Bowling, Golf, Billiard NINTENDO SWITCH REGION FREE JAPANESE VERSION

D3 Publisher THE Taikan ! Sports Pack: Tennis, Bowling, Golf, Billiard NINTENDO SWITCH REGION FREE JAPANESE VERSION
BESTSELLER NO. 9 in 2022

Animal Crossings New Horizons - Nintendo Switch [Digital Code]

Animal Crossings New Horizons - Nintendo Switch [Digital Code]
BESTSELLER NO. 10 in 2022
  • Build your community from scratch on a deserted island brimming with possibility; Create your personal getaway and customize your character, home, decorations, and even the landscape itself
  • Collect materials to construct everything from furniture to tools! Then, use what you create to give your island a personal touch
  • Watch as the time of day and seasons match real life—even your hemisphere! Each day holds potential for surprises and discoveries
  • Get to know the island residents, garden, fish, decorate, hunt for fossils, and more!

Video Game- Shank 2 Theme Guitar TAB

The guitar tablature for the video game Shank 2 main theme song.

This is the guitar tab for the Shank 2 video game theme song that was created by Vincent DeVera and Jason Garner (I don't know which one actually made the theme so I'll put both). A guy requested this on Gametabs.com a few years ago so that he could learn how to play it but no one ever seemed to get around to making it, so I decided to fulfill the request and write it out.

I went to Youtube and listened to the song over and over again to try and recreate the Shank 2 theme song by ear. For some parts you'll also have to play by ear to get how fast or slow the melody goes because I did not include note duration (you would need proper sheet music for that). The measure lines in this tab are not like standard sheet music, I mostly used them to keep track of what part I was listening to when I was writing the TAB out so that I could fast forward and rewind to let me know which part I was working on.

This is the first version of the guitar TAB for the Shank 2 theme so it isn't 100% perfect, but for the most part you will have the main melody and it is playable.

Notation Explanation:

Vibrato: ~~~

Slide: /

H: Hammer on

P: Pull off

M: Measure No.

Shank 2 Theme Guitar TAB V1.0

M1
E|----------------------------------------13/15--|----------------------------------|----------------------------------|

B|--------------------------12-13---------------|-----------------------------------|----------------------------------|

G|-12/14~~~~-----14-------------------------|--12-12/14~~-------------------|-----------12--14---14~~~---|

D|-------------------------------------------------|-----------------12H14P12~~|-12/14---------------------------|

A|-------------------------------------------------|----------------------------------|-----------------------------------|

E|-------------------------------------------------|----------------------------------|-----------------------------------|

M4 (25 sec)

E|------------------|------------------12~~--12---|------------------------------------------|

B|------------------|--12--13/15------------------|-15--13---12~~~----------------------|

G|-12--12-14----|---------------------------------|-------------------------12/14--14~~~|

D|------------------|---------------------------------|------------------------------------------|

A|------------------|---------------------------------|------------------------------------------|

E|------------------|---------------------------------|-------------------------------------------|

M7 (28 sec)

E|---------------------------------------|--------------------------------------|--------------------------------------|

B|---------------------------------------|-/15---13---12~~-----------------|--------------------------------------|

G|-------------12-----14----14-~~~-|------------------------12------------|-------------------------------------|

D|--12/14-----------------------------|------------------------------12H14-|-----14---12-----------------------|

A|---------------------------------------|---------------------------------------|-----------------14--12-12H14~-|

E|----------------------------------------|---------------------------------------|------------------------------------|

M10 (50 sec)

E|-------0--------------|----------------------------|-------------------------------------------------|

B|----1-----------------|---------------------------|--------------------------------------------------|

G|-2--------------------|---14~~~14~~~14~~|-14--12------------------------------------------|

D|-----------------------|--------------------------|----------14-12-14--14-12B-12---------------|

A|------------------------|--------------------------|------------------------------------12~~~12/0-|

E|------------------------|---------------------------|--------------------------------------------------|

(To slide off to zero run your finger towards the nut to fade the note out)

M13 (1:32)

E|-----------------------------------|---------------------------------------------------|

B| --------------------14-14~~/0-|---------------------------------------------------|

G|--------------12------------------|--------------------------------------------------|

D|-14-14-14-----------------------|-12/14-12--------------------------------------|

A|------------------------------------|--------------12-10-12-12-12~~~~----------|

E|-------------------------------------|-------------------------------------------------|


M15 (1:36) played fast

E|--------------------------------------|------------------------------------------------------|

B| -------------------------------------|------------------------------------------------------|

G|-------------------------------------|-------------------------------------------------------|

D|-------------10-12--14-12--10---|-----------12---12B---12B---12B-14-12~~~---|

A|-12-10-13------------------------|--10-12----------------------------------------------|

E|-------------------------------------|--------------------------------------------------------|

M17 (1:43)

E|---------------------|---------------------15-------------------------|--------------------------|

B|---------------------|----------12-13-------------------------------|--------------------------|

G|-14~14~~-12/0--|-12-14-----------------12/14-14-14~~~~-|--------------------------|

D|---------------------|-------------------------------------------------|-12H-14P-12~~~~~-|

A|---------------------|-------------------------------------------------|--------------------------|

E|---------------------|--------------------------------------------------|-------------------------|

M20 (1:55))

E|------------------------------|-----------------------------12---12-12-12-12~~~~----|

B|---------12-12H14-14~~~|----------12---13---15-----------------------------------|

G|-12-14---------------------|-12-14-----------------------------------------------------|

D|------------------------------|-------------------------------------------------------------|

A|------------------------------|-------------------------------------------------------------|

E|-------------------------------|-------------------------------------------------------------|

M22 Played very fast

E|-----------------12----------------------------------------------------------------|

B|-13-13H15--------12-------------12--13--15P12----------------------------|

G|-----------------------------12-----------------------------------12H14~/0-----|

D|------------------------------------------------------------------------------------|

A|-------------------------------------------------------------------------------------|

E|-------------------------------------------------------------------------------------|

You can comment below and tell me which parts to fix and I will update the TAB to the correct notes.
On the right side of this page is the Youtube video for the song so that you can listen to how the melody goes.

Since this is the only Shank 2 TAB on the net right now, you may use this TAB on other websites, but please link back to this one as the source. Thank you.

Related Bestselling Lists That You Might Like